Linkin Park Online - http://linkinpark.poptart.net
Band: Linkin Park
Album: "Hybrid Theory"
Song: With You
Author: Daniel Height (todnh@hotmail.com)

Tuning: B, F#, B, E, G#, C#
Note: * = Harmonic

Intro (bass part for guitar)
C#  ---------------------------------------
G#  ---------------------------------------
E   ---------------------------------------
B   ---------------------------------------
F#  ---------------------------------------
B   5-5---5-5---5-5---5-5------------------

Verse (Chester)
C#  --------------------------------------
G#  --------------------------------------
E   --------------------------------------
B   0--0-0-1---0-0---0---0-0-0------------
F#  0--0-0-1---0-0---0---0-0-0------------
B   0--0-0-1---0-0---0---0-0-0--*3--------
    pm......   pm.............

Chorus
C#  -----------------------------------------
G#  -----------------------------------------
E   7-----7----10-----5----------------------
B   5-----x-----8-----3----------------------
F#  5-----5-----8-----3----------------------
B   5-----0-----8-----3----------------------

Make your own free website on Tripod.com