Linkin Park Online - http://linkinpark.poptart.net
Band: Linkin Park
Album: "Hybrid Theory"
Song: Pushing Me Away
Author: Daniel Height (todnh@hotmail.com)

Tuning: C#, G#, C#, F#, Bb, Eb

Intro and Verse
Eb  *12------------|------*12------|--------------|--------------
Bb  -------*12-----|---*7------*12-|------*12-----|*12----*7-----
F#  ----*7---------|*5-------------|---*7---------|-----------*7-
C#  ---------------|---------------|*7------------|----*7--------
G#  ------------*7-|---------------|-----------*7-|--------------
C#  ---------------|---------------|--------------|--------------
    

Chorus 1
Eb  ---------------------------------------------------------------------------------
Bb  ---------------------------------------------------------------------------------
F#  -----------------------5---5---5-5--5-5---5-5-----------------------2---2--2-4---
C#  2---2---2-2--2-2---2-2-5---5---5-5--5-5---5-5-5---5---5-5--5-5--5-5-2---2--2-4--0
G#  2---2---2-2--2-2---2-2-3---3---3-3--3-3---3-3-5---5---5-5--5-5--5-5-0---0--0-2--0
C#  2---2---2-2--2-2---2-2------------------------5---5---5-5--5-5--5-5-------------0

Chorus 2
Eb  ----------------------------------------------------------------------------------
Bb  ----------------------------------------------------------------------------------
F#  5---5---5-5--5-5---5-5-7---7---7-7--7-7---7-7-2---2---2-2--2-2---2-2-------------5
C#  5---5---5-5--5-5---5-5-7---7---7-7--7-7---7-7-2---2---2-2--2-2---2-2-4---4--4-5--5
G#  3---3---3-3--3-3---3-3-5---5---5-5--5-5---5-5-0---0---0-0--0-0---0-0-4---4--4-5--2
C#  ---------------------------------------------------------------------4---4--4-5---

Make your own free website on Tripod.com