Linkin Park Online - http://linkinpark.poptart.net 

Band: Linkin Park 
Album: "Hybrid Theory"
Song: Papercut 
Author: Daniel Height (todnh@hotmail.com)

Tuning: C#, G#, C#, F#, Bb, Eb 
Note: if a number is in italics, see the footnote below it.

Intro
Eb 10--12--13--12--10--12--13--12-----------
Bb --10--10--10--10--10--10--10--10---------
F# -----------------------------------------
C# -----------------------------------------
G# -----------------------------------------
C# -----------------------------------------

Chorus
Eb------------------------------------------
Bb------------------------------------------
F# --------10--9--5-------------------------
C# 0-0-0-------------------------------1-1-3
G# 0-0-0----8--7--3--------------------1-1-3
C# 0-0-0-------------------------------1-1-3
                                      (last time only)  

Verse
Eb --------------------------------------
Bb --------------------------------------
F# --------------------------------------
C# 0-0-0----3-3-3-3-2-2-------------1-1-3
G# 0-0-0----1-1-1-1-0-0-------------1-1-3
C# 0-0-0----------------------------1-1-3
[palm mute all]                (second verse only)   

Ending
Eb -----------------------------------------------------
Bb -----------------------------------------------------
F# -----------------------------------------------------
C# 8-8-8---8---8-8-10-10-10---5-5-5---5--5-5-5-5---5-5-5
G# 8-8-8---8---8-8-10-10-10---5-5-5---5--5-5-5-5---5-5-5
C# 8-8-8---8---8-8-10-10-10---5-5-5---5--5-5-5-5---5-5-5

Make your own free website on Tripod.com