Linkin Park Online - http://linkinpark.poptart.net
Band: Linkin Park
Album: "Hybrid Theory"
Song: In The End
Author: Daniel Height (todnh@hotmail.com)

Tuning: C#, G#, C#, F#, Bb, Eb
Note: A * means play harmonic.

Verse
Eb  ----------------*7-----------------------*12-
Bb  -------*7-----------------------*5-----------
F#  *5----------------------*5-------------------
C#  ---------------------------------------------
G#  ---------------------------------------------
C#  ---------------------------------------------

Chorus
Eb  -----------------------------------------------------
Bb  -----------------------------------------------------
F#  ------------7-----5------------------7-----5---------
C#  2-----5-----7-----5---0--2-----5-----7-----5-----0---
G#  2-----5-----5-----3---0--2-----5-----5-----3-----0---
C#  2-----5-----0---------0--2-----5-----0-----------0---

Make your own free website on Tripod.com