Linkin Park Online - http://linkinpark.poptart.net
Band: Linkin Park
Album: "Hybrid Theory"
Song: By Myself
Author: Daniel Height (todnh@hotmail.com)

Tuning: B, F#, B, E, G#, C#
Note: Actual song is Played with an Ibanez 7-String
          Tab written for 6-String
          * = Harmonic

Intro and Bridge
C#  --------------------------------------------------------------
G#  --------------------------------------------------------------
E   4--4-----------------4--4-------------------------------------
B   4--4--*3--3-3--3--3--4--4--*3--3-3--3--3----------------------
F#  2--2------3-3--3--3--2--2------3-3--3--3----------------------
B   ----------3-3--3--3------------3-3--3--3----------------------
              pm.......            pm.......

Chorus
C#  --------------------------------------------------------------
G#  --------------------------------------------------------------
E   4--------------------------4----------------------------------
B   4----5--x-x--x--2--x-x--x--4----5--x-x--x--2--x-x--x----------
F#  2----5--x-x--x--2--x-x--x--2----5--x-x--x--2--x-x--x----------
B   -----5--x-x--x--2--x-x--x-------5--x-x--x--2--x-x--x----------
         pm.....    pm.....         pm.....    pm.....

Middle Part
C#  --------------------------------------------------------------
G#  --------------------------------------------------------------
E   4--4------------------4--4------------------------------------
B   4--4-------3-3--3--3--4--4-------3-3--3--3--------------------
F#  2--2-------3-3--3--3--2--2-------3-3--3--3--------------------
B   -----------3-3--3--3-------------3-3--3--3--------------------
               pm...........         pm............
Make your own free website on Tripod.com