The Linkin Park Network - http://www.linkinpark-network.com

Song: With You 
Artist: Linkin Park 
Album: Hybrid Theory 
Tabbed By: Josh Landholt(LowEnd9792@Aol.com) 
Member of the Bass Tab Archive Tabbing Army 


Standard Tuning (B,E,A,D,G) 

Intro(0:00)with a wierd overdrive type effect 
G|-------| 
D|-------| 
A|-------|[4 Times] 
E|-------| 
B|--5-5--| 

Chorus(0:12) 
G|----------------------------------| 
D|----------------------------------| 
A|----------------------------------|[4 Times] 
E|----------------------------------| 
B|--0-0-0-0-1-0-0-0-0-0-0---16------| 

Post-Chorus #1(0:22) 
G|---------------------------| 
D|---------------------------| 
A|---------------------------| 
E|--0------7-------3---------| 
B|------------------------3--| 

Verse(0:31-0:51) no bass 

Chorus(0:51) [8 Times] 

Post-Chorus #2(1:11) 
G|------------------------------| 
D|------------------------------| 
A|------------------------------|[1 Time] 
E|--0------7-------3-------10---| 
B|------------------------------| 

Verse(1:21-1:40) no bass 

Chorus(1:40) [8 Times] 

Post-Chorus #2(1:59) [2 Times] 

Intro(2:19) [9 Times]with wierd overdrive type effect 

Post-Chorus #2(2:31) [5 Times] 

Intro(3:10) [? Times]with wierd overdrive type effect 
just play and fade out like the record does 

That is it.  Really easy song, actually kinda boring for 
the bass player.  To make the Post-Chorus Riff more  
exciting mess around with the octaves for a cool sound.
Peace.
Make your own free website on Tripod.com