The Linkin Park Network - http://www.linkinpark-network.com

Song: One Step Closer
Artist: Linkin Park
Album: Hybrid Theory
Tabbed By: Skyler (BgGintHed@aol.com)

Tuning: D A d G

Hold till after intro then play.
G|------------------
d|--------2---------
A|-----------1-0----
D|-0-0-2----------3-

Verse:
First
G|--------------
d|--------------
A|-------1-0----
D|--0-0---------

This on"All these words/thoughts"
G|------------------
d|--------2---------
A|-----------1-0----
D|-0-0-2----------3-

Nothing during "Just like before"

Chours:
G|--------------------------------------
d|--------------------------------------
A|-------5---3-3--0---1-1------5-5------
D|--0-0--------------------0--------1---

During "I'm about to (boom, boom, boom, boom, boom) break!"
G|--------------------------
d|--------------------------
A|--------------------------
D|-1-1-1-1-1-1-1-1----------

Nothing during bridge
Make your own free website on Tripod.com