The Linkin Park Network - http://www.linkinpark-network.com

Artist: Linkin Park  
Title: Forgotten  
Album: Hybrid Theory  
Tabbed by: Paco (copo4369@aol.com)  

Tuning: (C#, A, D, G)  

I love this bassline and i decided why not tab it out for other people to enjoy.  

Intro and Prechorus  

|--------------------------|  
|--------------------------|  
|--------------------------|  
|---3-2-2-2--3-3-2-2-2-----|  


Verse  

|----------------------------------------|  
|----------------------------------------|  
|------6-7-6--------------------9--------|  
|---7---------10--10--10--7--5----6--7---|  


Chorus  

|--------------------------------------|  
|--------------------------------------|  
|------6-7-6---------------------------|  
|---7--------10-10-10-8h10--8h10--8h10-|  

Bridge  

|-------------------------|  
|-------------------------|  
|-------------------------|  
|--7-7--5-7-3-3-3-2-3-5-5-|  
Make your own free website on Tripod.com