The Linkin Park Network - http://www.linkinpark-network.com

Artist: Linkin Park
Title: Crawling
Album: Hybrid Theory
Tabbed by: Paco (copo4369@aol.com)
Edited by Amir (amir_desert@hotmail.com)

Tuning (B,E,A,D,G)

The intro was pretty much right

G|-------------------------- 
D|-----2----2--------------- 
A|--0----2----4--2---------0 
E|----------------------4--- 
B|------------------5------- 

Verse 

G|------------------------ 
D|------------------------ 
A|-----------7------------ 
E|------5----------7------ 
B|--2--------------------- 

Chorus (I think this is right) 

G|------------------------- 
D|------------------------- 
A|------5-----7------------ 
E|--------5-----7-----2---2 
B|--2---------------------- 
Make your own free website on Tripod.com