The Linkin Park Network - http://www.linkinpark-network.com/

Artist: Linkin Park
Title: A place for my head  
Album: Hybrid theory  
Tabbed by: Paco (copo4369@aol.com)  

There are some variations that the bassists uses throughout the song but this  
is the main stuff...Keep in mind this is my first tab. Linkin Park is like my  
favorite band and no one seems to want to tab them so I took the step.  

Tuniung: (C#, A, D, G) - You are supposed to tune all strings down but I find it  
easier to play this way..

Guitar plays for a little then:  

|-----------|  
|-----------|  
|-----------|         4X  
|----2--2---|  

Verse 1:  

|-------------------------------------|-----------------------------------|  
|-------------------------------------|-----------------------------------| repeat  
|-------------------------------------|-----------------------------------| as  
|--2----2-2--2-2-2------5-5-5--7-7-7--|--2----2-2--2-2-2----5-5-5---3-3-3-| necessary  


Chorus:  

|-------------------------------------|  
|---8-9-8-6---------------------------|repeat as necesary  
|-6----------9--9--7-7-7--9--6--------|also use this at
|-------------------------------------|the "You try to take the best of me" part

Verse 2:  

|-------------------------------|----------------------------------------|---------------------------------|  
|-------------------------------|----------------------------------------|---------------------------------|  
|-------------------------------|----------------------------------------|---------------------------------|  
|---X--X-X--X-X-X--5-5-5-7-7----|--2--2-2---2-2-2---5-5-5---3-3-3--------|--2--2-2---2-2-2---5-5-5--7-7-7--|  

|---------------------------------|--------|--------|------|------------------------------|  
|---------------------------------|--------|--------|------|------------------------------|  
|---------------------------------|--------|---2----|------|-2-/-14--14--14--14--14--14---|  
|--2--2-2--2-2-2---5-5-5---3-3-3--|----2---|--------|--2---|------------------------------|  

Then Chorus.. Then:  

|----------------------------------|  
|----------------------------------|  
|----------------------------------|  
|----2-2---2-2-2---2-2-2--2-2--5---|  

Thats prettty much the song...have fun.
Make your own free website on Tripod.com